Misc Soundtrack - King Of The Hill Theme Chords & Tabs

 

King Of The Hill Theme Chords & Tabs

Misc Soundtrack Chords & Tabs

Version: 2 Type: Tab 1 rating
1 star 2 stars 3 stars 4 stars 5 stars
comments

King Of The Hill Theme Tab

------------------------------------------------------------
	          THEME - KING OF THE HILL
------------------------------------------------------------

By:EDWARD HARPER,EMAIL ME AT guitarist_of_2002@yahoo.com if you have any questions 

e|---------------------------------------------------------|
B|---------------------------------------------------------|
G|---------------------------------------------------------|
D|---------------------------------------------------------|
A|----------------------4-2--------------------------------|
E|-0-0-0-4-0-0-0-5-5-5------0-0-0-4-0-0-0-5-4-2-4-2--------|
[ Tab from: http://www.guitartabs.cc/tabs/m/misc_soundtrack/king_of_the_hill_theme_tab_ver_2.html ]
e|---------------------------------------------------------|
B|---------------------------------------------------------|
G|---------------------------------------------------------|
D|---------------------------------------------------------|
A|---------------------4-2--7------------------------------|
E|-0-0-0-4-0-0-0-5-5-5--------9-7-5-4-4-4-5-4-0------------|

e|---------------------------------------------------------|
B|---------------------------------------------------------|
G|-6-6-6-6-------------------------------------------------|
D|-6-6-6-6-6-6-6-6--7-7-7-7-7-7-7-7-9-9-9-9-9-9-9-9--------|
A| 4-4-4-4-6-6-6-6--7-7-7-7-7-7-7-7-9-9-9-9-9-9-9-9--------|
E|---------4-4-4-4--5-5-5-5-5-5-5-5-7-7-7-7-7-7-7-7--------|

e|---------------------------------------------0-0--------|
B|---------------------------------------------0-0--------|
G|---------------------------------------------9-9--------| 
D|---------------------------------------------9-9--------| 
A|---------------------4-2-7------------------------------| 
E|-0-0-0-4-0-0-0-5-5-5-------9-7-5-4-4-4-5-4-0------------|  
this is 100% right
Comments