Misc Soundtrack - King Of The Hill Theme Chords & Tabs

 

King Of The Hill Theme Chords & Tabs

Misc Soundtrack Chords & Tabs

Version: 10 Type: Tab 0 ratings
1 star 2 stars 3 stars 4 stars 5 stars
comments

King Of The Hill Theme Tab

This is my first tab and i know for sure it's perfect. Please rate me

e|--------------------0--------------------|
B|------2--2----------0--------------------|
G|------2--2----------1--------------------|
D|------2--2----------2--------------------|
A|--0---------0-------2--------------------|
E|----------------0------------------------|
                        let ring........

e|--------------------------------------------|
B|--------------------------------------------|
G|--------------------------------------------|
D|-2--2-2-2--2-2-6--2-2-2--2-2-7--7-7-7-11-9--|
A|-2--2-2-2--2-2-6--2-2-2--2-2-7--7-7-7-11-9--|
E|-0--0-0-0--0-0-4--0-0-0--0-0-5--5-5-5-9--7--|


e|-------------------------------------------------------|
B|-------------------------------------------------------|
D|-------------------------------------------------------|
G|-2--2-2-2--2-2-6--2-2-2--2-2-7--7---6--6--4-4---6--4---|
A|-2--2-2-2--2-2-6--2-2-2--2-2-7--7---6--6--4-4---6--4---|
E|-0--0-0-0--0-0-4--0-0-0--0-0-5--5---4--4--2-2---4--2---|


e|--------------------------------------------|
B|--------------------------------------------|
D|--------------------------------------------|
G|-2--2-2-2--2-2-6--2-2-2--2-2-7--7-7-7-11-9--|
A|-2--2-2-2--2-2-6--2-2-2--2-2-7--7-7-7-11-9--|
E|-0--0-0-0--0-0-4--0-0-0--0-0-5--5-5-5-9--7--|

[ Tab from: http://www.guitartabs.cc/tabs/m/misc_soundtrack/king_of_the_hill_theme_tab_ver_10.html ]
e|--------------------------------------------|
B|--------------------------------------------|
D|--------------------------------------------|
G|-14-x-11-x-9-x-7-x-6--6-6--/7-6-4\-2--------|
A|-14-x-11-x-9-x-7-x-6--6-6--/7-6-4\-2--------|
E|-12-x-9--x-7-x-5-x-4--4-4--/5-4-2\-0--------|

e|--------------------------------------------------------------------------|
B|--------------------------------------------------------------------------|
G|-x--x--x----6--6--6-6-----------------------------------------------------|
D|-x--x--x----6--6--6-6---6-6-6--6------7-77--7-7--7--7777--99--77--66---7\2|
A|-x--x--x----4--4--4-4---6-6-6--6------7-77--7-7--7--7777--99--77--66---7\2|
E|-x--x--x----------------4-4-4--4------5-55--5-5--5--5555--77--55--44---5\0|

e|--------------------------------------------|
B|--------------------------------------------|
G|--------------------------------------------|
D|-2--2-2-2--2-2-6--2-2-2--2-2-7--7-7-7-11-9--|
A|-2--2-2-2--2-2-6--2-2-2--2-2-7--7-7-7-11-9--|
E|-0--0-0-0--0-0-4--0-0-0--0-0-5--5-5-5-9--7--|

e|--------------------------------------------|
B|--------------------------------------------|
G|--------------------------------------------|
D|-14-x-11-x-9-x-7-x-6--6-6--/7-6-4\-2---14-14|
A|-14-x-11-x-9-x-7-x-6--6-6--/7-6-4\-2---14-14|
E|-12-x-9--x-7-x-5-x-4--4-4--/5-4-2\-0---12-12|
Comments