Misc Soundtrack - King Of The Hill Theme Chords & Tabs

 

King Of The Hill Theme Chords & Tabs

Misc Soundtrack Chords & Tabs

Version: 1 Type: Bass Tab 0 ratings
1 star 2 stars 3 stars 4 stars 5 stars
comments

King Of The Hill Theme Bass Tab

Song:  King Of The Hill Theme
Band: ----
Album:  -----
tabbed by:  Dave Ermak --  Snakpak24@aol.com


G:--------------------------------------------------------------- 
D:--------------------------------------------------------------- 
A:------------------------------------------4--2---------------------- 
E:-00000000004000005555555-------000000000004000005555554---2
[ Tab from: http://www.guitartabs.cc/tabs/m/misc_soundtrack/king_of_the_hill_theme_btab.html ]
G:--------------------------------------------------------------- 
D:--------------------------------------------------------------- 
A:------------------------------------------4--2/77------------------- 
E:-00000000004000005555555-----------99--77--55 44--RRRRR

G:--------------------------------------------------------------- 
D:--------------------------------------------------------------- 
A:-4*4*4*4------------------------------------------------------ 
E:-------------4*4*4*4*---5555555--7777777--------------------- 

G:--------------------------------------------------------------- 
D:--------------------------------------------------------------- 

A:------------------------------------------4--2/77--------------------------5
5
E:-00000000004000005555555-----------99--77--55--44--55--------- 

* = staccato
R= click


Comments