Misc Soundtrack - Kill Bill Chords & Tabs

 

Kill Bill Chords & Tabs

Misc Soundtrack Chords & Tabs

Version: 1 Type: Tab 0 ratings
1 star 2 stars 3 stars 4 stars 5 stars
comments

Kill Bill Tab

"Battle Without Honor or Humanity"


Kill Bill By Paul Dunn



Strumming Section


------x-----x-----x----x-----x-----x----------
------x-----x-----x----x-----x-----x----------
------9----12----14----12----14----12---------
------x-----x-----x----x-----x-----x----------
------7----10----12----10----12----10---------
------0-----0-----0-----0----0-----0----------


------x--------------x-------------------------
------x--------------x-------------------------
------9-------------16-------------------------
------x--------------x-------------------------
------7-------------14-------------------------
------0--------------0-------------------------

[ Tab from: http://www.guitartabs.cc/tabs/m/misc_soundtrack/kill_bill_tab.html ]
-------x-----x-----x-----x-----x-----x--------------x-----
-------x-----x-----x-----x-----x-----x--------------x-----
------14----12----14----12----14----12--------------9-----
-------x-----x-----x-----x-----x-----x--------------x-----
------12----10----12----10----12----10--------------7-----
-------0-----0-----0-----0-----0-----0--------------0-----


---x----x-----------x---x---x-------x---------------x------
---x----x-----------x---x---x-------x---------------x------
--21---19----------16--15--14------12---------------9------
---x----x-----------x---x---x-------x---------------x------
--19---17----------14--13--12------10---------------7------
---0----0-----------0---0---0-------0---------------0------


listen to the song to get the correct rhythm 



__________PAUL____________DUNN_______________
Comments