Misc Soundtrack - Jurassic Park Theme Chords & Tabs

 

Jurassic Park Theme Chords & Tabs

Misc Soundtrack Chords & Tabs

Version: 4 Type: Tab 0 ratings
1 star 2 stars 3 stars 4 stars 5 stars
comments

Jurassic Park Theme Tab

-----------------|-------------------|----------------------
-----------------|-------------------|----------------------
-----------------|----6--7-7--6------|---7-6-----------6--7-
-0--7---------9--|--9-----------7--9-|-------7-8----9-------
---------9--7----|-------------------|------------9---------
-----------------|-------------------|----------------------

-------------------
-------------------
-------------------
--0----------------
----7--9-9--7------
-------------------

I'm not exactly sure if this is that actual theme which is on Jurrasic park, but i certainly hear this theme through the film a lot of the time.
[ Tab from: http://www.guitartabs.cc/tabs/m/misc_soundtrack/jurassic_park_theme_tab_ver_4.html ]
Comments