Misc Soundtrack - Jurassic Park Chords & Tabs

 

Jurassic Park Chords & Tabs

Misc Soundtrack Chords & Tabs

Version: 1 Type: Tab 3 ratings
1 star 2 stars 3 stars 4 stars 5 stars
comments

Jurassic Park Tab

My fisrt tab ever.  Sounds 100% perfect to me.

[ Tab from: http://www.guitartabs.cc/tabs/m/misc_soundtrack/jurassic_park_tab.html ]
e--2-1-2--2-1-2--2-1-2--4-4--7-7-6----6---------6------6---7-6-6-4-4--
b---------------------------------------7-9-6-----7-9----7------------
g---------------------------------------------6-----------------------
d---------------------------------------------------------------------
a---------------------------------------------------------------------
e---------------------------------------------------------------------

Refrain

e--2-1-2------2-1-2------2-1-2------
b--------2-0--------2-0--------2-0--
g-----------------------------------
d-----------------------------------
a-----------------------------------
e-----------------------------------

Then take the refrain right into the top part skipping the 2-1-2s
Comments