Misc Soundtrack - Johnny Goes Marching Chords & Tabs

 

Johnny Goes Marching Chords & Tabs

Misc Soundtrack Chords & Tabs

Version: 1 Type: Tab 0 ratings
1 star 2 stars 3 stars 4 stars 5 stars
comments

Johnny Goes Marching Tab

Johnny goes marching(I THINK) DIE HARD WITH A VENGENCE (THEME)


E-----------------------------------------------------------------------|
G----2/4---4--4-----6----7-----6---7------6-----------------------------|
B---------------------------------------------------6------3----6-------|
D-----------------------------------------------------------------------|
A-----------------------------------------------------------------------|
E-----------------------------------------------------------------------|
[ Tab from: http://www.guitartabs.cc/tabs/m/misc_soundtrack/johnny_goes_marching_tab.html ]
--------------------------------------------------6---2---6-------------|
-----2/4---4--4-----6---7---6---7------6--------------------------------|
------------------------------------------------------------------------|
------------------------------------------------------------------------|
------------------------------------------------------------------------|
------------------------------------------------------------------------|

------------------------------------------------------------------------|
--11---11----11-------9---9---9----7---7---7-------6-------6---6---6----|
------------------------------------------------------------------------|
------------------------------------------------------------------------|
------------------------------------------------------------------------|
------------------------------------------------------------------------|

------------------------------------------------------------------------|
---11----9-----7----6------2/4---4--4---2/4-----------------------------|
------------------------------------------------------------------------|
------------------------------------------------------------------------|
------------------------------------------------------------------------|
------------------------------------------------------------------------|
Comments