Misc Soundtrack - Jfk Chords & Tabs

 

Jfk Chords & Tabs

Misc Soundtrack Chords & Tabs

Version: 1 Type: Tab 0 ratings
1 star 2 stars 3 stars 4 stars 5 stars
comments

Jfk Tab


Hi. This is my first tab, and I think that it sounds the same as 
the original John Williams' theme from the movie JFK. 
It's simple ro play.


E----8--6-8-6-5--13-12-10-8-10--8-8-:r||-13-13-12-10-8-10-8----|
B--6--------------------------------:e||-----------------------|
G-----------------------------------:p||-----------------------|
D-----------------------------------:e||-----------------------|
A-----------------------------------:a||-----------------------|
E-----------------------------------:t||-----------------------|


E--13-15-12-8-10-8-------------|
B------------------------------|
G------------------------------|
D------------------------------|
A------------------------------|
E------------------------------|

[ Tab from: http://www.guitartabs.cc/tabs/m/misc_soundtrack/jfk_tab.html ]
E--18-17-15-13-15-17-17-------|
B-----------------------------|
G-----------------------------|
D-----------------------------|
A-----------------------------|
E-----------------------------|

E--13-15-12-8-10-8-------------|
B------------------------------|
G------------------------------|
D------------------------------|
A------------------------------|
E------------------------------|

E--16-18-15-11-13-11-----------|
B------------------------------|
G------------------------------|
D------------------------------|
A------------------------------|
E------------------------------|

E--13-15-12-8-6-8-5-1-5-3--3--6-8-5-1-3-1-1--|
B--------------------------------------------|
G--------------------------------------------|
D--------------------------------------------|
A--------------------------------------------|
E--------------------------------------------|

It sure sounds better on piano.

John W. rules.

That's all for now.

///////////DAVOR///////////////////
////////////STOJANOVSKI////////////

Comments