Misc Soundtrack - Jaws Chords & Tabs

 

Jaws Chords & Tabs

Misc Soundtrack Chords & Tabs

Version: 1 Type: Bass Tab

Jaws Bass Tab

This is the theme song to JAWS



G--------------------------------------------------------------------
A--------------------------------------------------------------------
D--------------------------------------------------------------------
E-0--1--0--1--0--1-0--1--0--1--0--1-0--1--0--1--0--1-0--1--0--1--0--1

G--------------------------------------------------------------------
A--------------------------------------------------------------------
D--------------------------------------------------------------------
E-0--1--0--1--0--1-0--1--0--1--0--1-0--1--0--1--0--1-0--1--0--1--0--1

G--------------------------------------------------------------------
A--------------------------------------------------------------------
D--------------------------------------------------------------------
E-0--1--0--1--0--1-0--1--0--1--0--1-0--1--0--1--0--1-0--1--0--1--0--1

G--------------------------------------------------------------------
A--------------------------------------------------------------------
D--------------------------------------------------------------------
E-0--1--0--1--0--1-0--1--0--1--0--1-0--1--0--1--0--1-0--1--0--1--0--1

G--------------------------------------------------------------------
A--------------------------------------------------------------------
D--------------------------------------------------------------------
E-0--1--0--1--0--1-0--1--0--1--0--1-0--1--0--1--0--1-0--1--0--1--0--1

G--------------------------------------------------------------------
A--------------------------------------------------------------------
D--------------------------------------------------------------------
E-0--1--0--1--0--1-0--1--0--1--0--1-0--1--0--1--0--1-0--1--0--1--0--1

G--------------------------------------------------------------------
A--------------------------------------------------------------------
D--------------------------------------------------------------------
E-0--1--0--1--0--1-0--1--0--1--0--1-0--1--0--1--0--1-0--1--0--1--0--1

G--------------------------------------------------------------------
A--------------------------------------------------------------------
D--------------------------------------------------------------------
E-0--1--0--1--0--1-0--1--0--1--0--1-0--1--0--1--0--1-0--1--0--1--0--1

G--------------------------------------------------------------------
A--------------------------------------------------------------------
D--------------------------------------------------------------------
E-0--1--0--1--0--1-0--1--0--1--0--1-0--1--0--1--0--1-0--1--0--1--0--1
[ Tab from: http://www.guitartabs.cc/tabs/m/misc_soundtrack/jaws_btab.html ]
G--------------------------------------------------------------------
A--------------------------------------------------------------------
D--------------------------------------------------------------------
E-0--1--0--1--0--1-0--1--0--1--0--1-0--1--0--1--0--1-0--1--0--1--0--1

G--------------------------------------------------------------------
A--------------------------------------------------------------------
D--------------------------------------------------------------------
E-0--1--0--1--0--1-0--1--0--1--0--1-0--1--0--1--0--1-0--1--0--1--0--1

G--------------------------------------------------------------------
A--------------------------------------------------------------------
D--------------------------------------------------------------------
E-0--1--0--1--0--1-0--1--0--1--0--1-0--1--0--1--0--1-0--1--0--1--0--1

G--------------------------------------------------------------------
A--------------------------------------------------------------------
D--------------------------------------------------------------------
E-0--1--0--1--0--1-0--1--0--1--0--1-0--1--0--1--0--1-0--1--0--1--0--1

G--------------------------------------------------------------------
A--------------------------------------------------------------------
D--------------------------------------------------------------------
E-0--1--0--1--0--1-0--1--0--1--0--1-0--1--0--1--0--1-0--1--0--1--0--1

G--------------------------------------------------------------------
A--------------------------------------------------------------------
D--------------------------------------------------------------------
E-0--1--0--1--0--1-0--1--0--1--0--1-0--1--0--1--0--1-0--1--0--1--0--1

G--------------------------------------------------------------------
A--------------------------------------------------------------------
D--------------------------------------------------------------------
E-0--1--0--1--0--1-0--1--0--1--0--1-0--1--0--1--0--1-0--1--0--1--0--1

G--------------------------------------------------------------------
A--------------------------------------------------------------------
D--------------------------------------------------------------------
E-0--1--0--1--0--1-0--1--0--1--0--1-0--1--0--1--0--1-0--1--0--1--0--1

G--------------------------------------------------------------------
A--------------------------------------------------------------------
D--------------------------------------------------------------------
E-0--1--0--1--0--1-0--1--0--1--0--1-0--1--0--1--0--1-0--1--0--1--0--1

G--------------------------------------------------------------------
A--------------------------------------------------------------------
D--------------------------------------------------------------------
E-0--1--0--1--0--1-0--1--0--1--0--1-0--1--0--1--0--1-0--1--0--1--0--1

Remember progressivly go faster
TABBED BY MATT