Misc Soundtrack - Jamesbond Chords & Tabs

 

Jamesbond Chords & Tabs

Misc Soundtrack Chords & Tabs

Version: 1 Type: Tab 1 rating
1 star 2 stars 3 stars 4 stars 5 stars
comments

Jamesbond Tab




This right of the acual sheet from jazz band class











-3-3--4-4--5-5-          REPEAT THE WHOLE TIME
-4-4--4-4--4-4-
-5-5--5-5--5-5-
---------------
---------------
---------------



while trumpets do the "du di da daaaaaaaaaa" maine chores

ya go
[ Tab from: http://www.guitartabs.cc/tabs/m/misc_soundtrack/jamesbond_tab.html ]
-3-3-3-3-3-3-3-3-3-3-3-3           4 a while
-4-4-4-4-4-4-4-4-4-4-4-4
-5-5-5-5-5-5-5-5-5-5-5-5    
------------------------
------------------------
------------------------




y'also go at sum point:


---------------------------
---------------------------
---------------------------
---------------------------
-5--7-7--5-5-5-5--8-8-7-7-7
---------------------------




wel l8ter (canda will kix  all ur asses in slt lake city!!!) ;)
Comments