Misc Soundtrack - James Bond Theme Chords & Tabs

 

James Bond Theme Chords & Tabs

Misc Soundtrack Chords & Tabs

Version: 8 Type: Tab 0 ratings
1 star 2 stars 3 stars 4 stars 5 stars
comments

James Bond Theme Tab

James Bond Theme
Standard Tuning

Hola. First tab. Sean Connery Rocks the Casbah. Enjoy.

Intro.

e|------------|
B|------------|
G|------------| 2x
D|------------|  
A|--2---3---4-|
E|---0---0---0|


e|-------------------|
B|-------------------|
G|-------------------| 3x
D|-------------------|
A|--222-3333-444-3333|
E|-------------------|


e|-------------------------------------|
B|-------------------------------------|
G|-------------------------------------|2x
D|-------------------------------------|
A|-------------------------------------|
E|--0-2-2-2-2-0-0-0---0-3-3-3-3-2-2-2--|
[ Tab from: http://www.guitartabs.cc/tabs/m/misc_soundtrack/james_bond_theme_tab_ver_8.html ]
e|----------------------------------------------|
B|----------------------------------------------|
G|----------------------------------------------|
D|-------------------------------------1-0------|
A|-----------------------------------------2-0-2|
E|--0-2-2-2-2-0-0-0---0-3-3-3-3-2-1-0-----------|

Trumpet Part

e|------10-9-----------------------------|
B|----8-----------8-9-------8---9-7------|
G|--9----------9--------------------7-8-9|
D|---------------------------------------|
A|---------------------------------------|
E|---------------------------------------|

You can either do any of the following things again or 
go straight to the ending which is...

Strum Slowly...

e|--0--|
B|--0--|
G|--0--|
D|--4--|
A|--2--|
E|--0--|

Cheers.
Comments