Misc Soundtrack - James Bond Theme Chords & Tabs

 

James Bond Theme Chords & Tabs

Misc Soundtrack Chords & Tabs

Version: 7 Type: Tab 0 ratings
1 star 2 stars 3 stars 4 stars 5 stars
comments

James Bond Theme Tab

Tabbed by: Eric F.
The other intro's blew hard so I made this. Good job for trying through.


Intro
E------------------------------------
B------------------------------------
G------------------------------------
D------------------------------------         (2x)
A---2------3-----4-------3-----------
E-------0------0------0-------0------ 

E---------------------------------------------------------
B---------------------------------------------------------
G---------------------------------------------------------
D---------------------------------------------------------
A---------------------------------------------------------
E--0--2-2-2--0-0-0-0---3-3-3---2-2-2----------------------
[ Tab from: http://www.guitartabs.cc/tabs/m/misc_soundtrack/james_bond_theme_tab_ver_7.html ]
E---------------------------------------------------------
B---------------------------------------------------------
G---------------------------------------------------------
D---------------------------------------------------------
A---------------------------------------------------------
E--0--2-2-2--0-0-0-0---3-3-3---2-1-0----------------------

E---------------------------------------------------------
B---------------------------------------------------------
G---------------------------------------------------------
D--1--0---------------------------------------------------
A--------2-0-2--------------------------------------------
E---------------------------------------------------------
Comments