Misc Soundtrack - James Bond Theme Chords & Tabs

 

James Bond Theme Chords & Tabs

Misc Soundtrack Chords & Tabs

Version: 1 Type: Bass Tab 0 ratings
1 star 2 stars 3 stars 4 stars 5 stars
comments

James Bond Theme Bass Tab

------------------------------------------------------------------
			     JAMES BOND THEME
------------------------------------------------------------------
Intro (x2)
G|---------------------------------------------------------------|
D|---------------------------------------------------------------|
A|--2---3---4---3------------------------------------------------|
E|---------------------------------------------------------------|

Main Riff (x2)
G|---------------------------------------------------------------|
D|---------------------------------------------------------------|
A|---------------------------------------------------------------|
E|0-2-2-2--0-0-0---0-3-3-3--2-2-2--------------------------------|
[ Tab from: http://www.guitartabs.cc/tabs/m/misc_soundtrack/james_bond_theme_btab.html ]
Main Riff Variation
G|---------------------------------------------------------------|
D|---------------------------------1-0---------------------------|
A|-------------------------------------2-0-2---------------------|
E|0-2-2-2--0-0-0---0-3-3-3--2-1-0--------------------------------|
Main Riff (x2)
Variation
Intro (x2)

Bridge1 Pt1 (x2)
G|----4-3-----------------------------4-3------------------------|
D|2-5-----5-4-5---5-4---2---------2-5-----5-4-5---5-4---1-2------|
A|--------------------2---4---------------------------2----------|
E|---------------------------------------------------------------|

Bridge1 Pt2 (x2)
G|---------------------------------------------------------------|
D|---2-2--2-4-2-4----5-5--5-4-2-4--------------------------------|
A|----------------------------------------7-7---------7-7--------|
E|------------------------------------------------7-----------7--|
Intro
Main Riff (x2)
Variation

Bridge 2
G|----------------------3-2----2-9-10----------------------------|
D|-------------4-3----0------3-----------------------------------|
A|----1-0----2------3-------------------2------------------------|
E|0-3------3-----------------------------------------------------|
Comments