Misc Soundtrack - James Bond Chords & Tabs

 

James Bond Chords & Tabs

Misc Soundtrack Chords & Tabs

Version: 5 Type: Tab 1 rating
1 star 2 stars 3 stars 4 stars 5 stars
comments

James Bond Tab

Title: James Bond
Tabbed by: John (ChildsHead)


(Section 1)
E---------------------||
B---------------------||
G---------------------||
D---------------------||
A--2--23--34--43-32---||
E--0--00--00--00-00---||
[ Tab from: http://www.guitartabs.cc/tabs/m/misc_soundtrack/james_bond_tab_ver_5.html ]
(Section 2)
E------------------------------||------------------------||
B------------------------------||------------------------||
G------------------------------||------------------------||
D------------------------------||------------------------||
A------------------------------||------------------------||
E--0-0H2-2-0-0-0-0--0H3-3-2-2--||--0--7--0--7--0--7-7-7--||

(Section 3)
E-----------------------------------------------||
B-----------------------------------------------||
G--2--2--2H3--3--3--3H4--4--4--4H3--3--3--------||
D---0--0----0--0--0----0--0--0----0--0--0-------||
A-0--0--0-0--0--0--0-0--0--0--0-0--0--0--0------||
E-----------------------------------------------||

Section 1
Section 2
Section 1
Section 3
Section 1
And fade Out

If you no a better way of playing this peace? Send it with any 
comments and (or) corrections, to the address bellow take it easy and keep rockin'.
   -  John

childshead@hotmail.com
Comments