Misc Soundtrack - James Bond Chords & Tabs

 

James Bond Chords & Tabs

Misc Soundtrack Chords & Tabs

Version: 2 Type: Tab 3 ratings
1 star 2 stars 3 stars 4 stars 5 stars
comments

James Bond Tab

   
James Bond Theme (Rokked up version)
S O U N D T R A C K
Tabbed (and modified) by Aaron Bridgeman (rokken@sicness.net)

http://bogans.arecool.net

Yes! I rocked up a new verison of the James Bond theme!
Make it a heavy metal song! Death metal! Black metal! Hardcore!
It's all good.

KEY:
pm. = palm mute
~   = sustain

N.B. These are all riffs, combine 'em how you like.

RIFF 1:
e|---------------------------------|
B|---------------------------------|
G|---------------------------------|
D|---------------------------------|
A|-2-2-2-3-3-3-3-3-4-4-4-3-3-3-3-3-|
E|-0-0-0-0-0-0-0-0-0-0-0-0-0-0-0-0-|
pm . . . . . . . . . . . . . . . .

RIFF 2:
e|-----------------------------------------|
B|-----------------------------------------|
G|-----------------------------------------|
D|-----------------------------------------|
A|-----------------------------------------|
E|-0--2-2-2--2~-0-0-0---0--3-3-3--3~-2-2-2-|

RIFF 3:
e|-----------------------------------------|
B|-----------------------------------------|
G|-----------------------------------------|
D|-----------------------------------------|
A|-2--4-4-4--4--2-2-2---2--5-5-5--5--4-4-4-|
E|-0--2-2-2--2--0-0-0---0--3-3-3--3--2-2-2-|
[ Tab from: http://www.guitartabs.cc/tabs/m/misc_soundtrack/james_bond_tab_ver_2.html ]
RIFF 4 (used as lead-ish part over riff 2 sounds best):
e|---------------------|
B|---------------------|
G|-4~~-5~~----6~~-5~~--|
D|-x---x------x---x----|
A|-2~~-3~~----4~~-3~~--|
E|---------------------|

L E A D   R I F F S
If you use these riffs, getting progressively higher to add tension, over
riff 2 or 3, it sounds pretty darn good.

LEAD 1:
e|--------------------------------------|
B|-5--7-7-7-7~-5-5-5--5--8-8-8-8~-7-7-7-|
G|--------------------------------------|
D|--------------------------------------|
A|--------------------------------------|
E|--------------------------------------|

LEAD 2:
e|-12--14-14-14-14~-12-12-12--12--15-15-15-15~-14-14-14-|
B|------------------------------------------------------|
G|------------------------------------------------------|
D|------------------------------------------------------|
A|------------------------------------------------------|
E|------------------------------------------------------|

LEAD 3:
e|--------------|
B|--------------|
G|--------------|
D|-1-0----------|
A|------2-0-2~~-|
E|--------------|

LEAD 4:
e|--------------|
B|-4-3~---------|
G|------4-2-4~~-|
D|--------------|
A|--------------|
E|--------------|

LEAD 5:
e|-------------------|
B|-16-15~------------|
G|--------16-14-16~~-|
D|-------------------|
A|-------------------|
E|-------------------|

As I said, combine these how you like
If you make 'em into a song and record it for some reason,
SEND ME YOUR MP3'S!!
Comments