Misc Soundtrack - James Bond Improvise By Nick Donlin Chords & Tabs

 

James Bond Improvise By Nick Donlin Chords & Tabs

Misc Soundtrack Chords & Tabs

Version: 1 Type: Tab 1 rating
1 star 2 stars 3 stars 4 stars 5 stars
comments

James Bond Improvise By Nick Donlin Tab

   
James Bond Improvise by Nick Donlin

umm, I kind made this up, it's mixin the james bond theme with some chords and riffs, it's cool... try it

2x
e------------------------
b------------------------
g------------------------
d------------------------
a------------------------
e-0-2-2-2-2-0-0-0-3-3-3-3
[ Tab from: http://www.guitartabs.cc/tabs/m/misc_soundtrack/james_bond_improvise_by_nick_donlin_tab.html ]
d-1-0---------------------
a-----2-0-2---------------
e-------------------------

4x
e----------------------
b----------------------
g-4-4-5-5-6-6-5-5------
d----------------------
a----------------------
e----------------------

4x
f#  em  g    em
||| ||  |||  ||


d-1-0---------------------
a-----2-0-2---------------
e-------------------------
Comments