Misc Soundtrack - Jackass Theme Chords & Tabs

 

Jackass Theme Chords & Tabs

Misc Soundtrack Chords & Tabs

Version: 1 Type: Tab 0 ratings
1 star 2 stars 3 stars 4 stars 5 stars
comments

Jackass Theme Tab

My first tab. I think it's right. If i don't have the right number
of 0's and 7's, then play however many sounds right to you.

intro:

e -----------------
B --3--5-5/7--7*---
G --4--5-5/7--7*---
D -----------------
A -----------------
E -----------------  (*=hold)

song:
[ Tab from: http://www.guitartabs.cc/tabs/m/misc_soundtrack/jackass_theme_tab.html ]
e ------------------------------------------------------------------------0--
B --7-5-3--0-0-0-0-0-0-0-0-0-0-0-0-3-5-5/7-7-7-7-7-7-7-7-7-7-7-7-7--7-5-3-0--
G --7-5-4--0-0-0-0-0-0-0-0-0-0-0-0-4-5-5/7-7-7-7-7-7-7-7-7-7-7-7-7--7-5-4-0--
D ---------------------------------------------------------------------------
A ---------------------------------------------------------------------------
E ---------------------------------------------------------------------------

outro:

e ---------------
B ---------------
G ---------------
D ---------------
A ---------------
E --4/6*6/3*-----
Comments