Misc Soundtrack - Inspector Gadget Theme Chords & Tabs

 

Inspector Gadget Theme Chords & Tabs

Misc Soundtrack Chords & Tabs

Version: 5 Type: Tab 0 ratings
1 star 2 stars 3 stars 4 stars 5 stars
comments

Inspector Gadget Theme Tab

e-------------------------------------------------------------|--
b-------------------------------------------------------------|--
g-------------------------------------------------------------|--
a-------0-2---1---0-----------0-2----6-5----------------------|--
d-0-2-3-----3---2---1---0-2-3---------------------------------|--
E-------------------------------------------------------------|--

[ Tab from: http://www.guitartabs.cc/tabs/m/misc_soundtrack/inspector_gadget_theme_tab_ver_5.html ]
e-------------------------------------------------------------|--
b-------------------------------------------------------------|--
g-------------------------------------------------------------|--
a-------0-2---1---0-----6-5-4-3-2-------6---------------------|--
d-0-2-3-----3---2---1-----------------6-----------------------|--
E-------------------------------------------------------------|--

I was playing around and came up with this. It sounded like the old Ispector
Gadget theme... I might be wrong.  E-mail me with complaints or if you like it
at biscuit_bandit@hotmail.com

-Kurt Angel-
Comments