Misc Soundtrack - Inspector Gadget Theme Chords & Tabs

 

Inspector Gadget Theme Chords & Tabs

Misc Soundtrack Chords & Tabs

Version: 3 Type: Tab 0 ratings
1 star 2 stars 3 stars 4 stars 5 stars
comments

Inspector Gadget Theme Tab

hey i was listening to the awesome cartoon song inspector gadget and i wrote out this tab!@ 

== INTRO ==

E----------------------------------------------------------------
B----------------------------------------------------------------
G----------------------------------------------------------------
D--------------------------2/1---------------------------------
A----------0-2~~-------0-2---------------------------------------
E----0-2-3-------0-2-3-------------------------------------------

E----------------------------------------------------------------
B----------------------------------------------------------------
G----------------------------------------------------------------
D--------------------------2/1---------------------------------
A----------0-2~~-------0-2---------------------------------------
E----0-2-3-------0-2-3-------------------------------------------
[ Tab from: http://www.guitartabs.cc/tabs/m/misc_soundtrack/inspector_gadget_theme_tab_ver_3.html ]
E----------------------------------------------------------------
B----------------------------------------------------------------
G----------------------------------------------------------------
D----2-----1-----0------2-----1-----0----------------------------
A------3-0---3-0---3-0----3-0---3-0---3-0------------------------
E----------------------------------------------------------------
                 ^~~~~~~~faster~~~~~~~~~^        

== CHORUS ==
E----------------------------------------------------------------
B----------------------------------------------------------------
G----------------------------------------------------------------
D----------------------------------2/1---------------------------
A----------0-2---1---0-----------2-------------------------------
E----0-2-3-----3---2---1---0-2-3---------------------------------

E----------------------------------------------------------------
B----------------------------------------------------------------
G--------------------------2-/-1---------------------------------
D----------0-2~~-------0-2---------------------------------------
A----0-2-3-------0-2-3-------------------------------------------
E----------------------------------------------------------------

Well thats my tab for the greatest Theme song ever!!!! Well enjoy it and have fun playin it~ Inspector Gadget RuLz!

TABBED BY: ~MeNaCe~
EMAIL: Menace210@aol.com
Comments