Misc Soundtrack - Inspector Gadget Theme Chords & Tabs

 

Inspector Gadget Theme Chords & Tabs

Misc Soundtrack Chords & Tabs

Version: 2 Type: Tab

Inspector Gadget Theme Tab

e|---------------------------------------------------------|
B|---------------------------------------------------------|
G|---------------------------------------------------------|
D|---------------------------------------------------------|
A|--------0-2---2-1---1-0---0------------------------------|
E|--0-2-3-----3-----2-----1--------------------------------|

e|---------------------------------------------------------|
B|---------------------------------------------------------|
G|---------------------------------------------------------|
D|----------------2-0-------0------------------------------|
A|--------0-2---2-----2---2--------------------------------|
E|--0-2-3-----3---------3----------------------------------|
[ Tab from: http://www.guitartabs.cc/tabs/m/misc_soundtrack/inspector_gadget_theme_tab_ver_2.html ]