Misc Soundtrack - Indiana Jones Theme Chords & Tabs

 

Indiana Jones Theme Chords & Tabs

Misc Soundtrack Chords & Tabs

Version: 2 Type: Tab 0 ratings
1 star 2 stars 3 stars 4 stars 5 stars
comments

Indiana Jones Theme Tab

Here's the intro lick to Indian Jones.  Chords and the rest are up to you.

e|----------------------------------10------------7-9-----------------
B|----------10-----------------7-9--------7-9-10----------------------
G|---6-7-9----------6-7-----9-----------------------------------------
D|---------------9----------------------------------------------------
A|--------------------------------------------------------------------
E|--------------------------------------------------------------------
[ Tab from: http://www.guitartabs.cc/tabs/m/misc_soundtrack/indiana_jones_theme_tab_ver_2.html ]
e|-------------7-9-10---------9-7-----9-7-----9-7--9-10---10-9-7------
B|--------10------------------------------------------------------10--
G|--6-7-9---------------9-9--------9-------9--------------------------
D|--------------------------------------------------------------------
A|--------------------------------------------------------------------
E|--------------------------------------------------------------------

That's the intro lick to Indian Jones.  Chords and the rest are up to you.
Submitted by: Cam Johnson
Comments