Misc Soundtrack - Imperial March Chords & Tabs

 

Imperial March Chords & Tabs

Misc Soundtrack Chords & Tabs

Version: 2 Type: Tab 0 ratings
1 star 2 stars 3 stars 4 stars 5 stars
comments

Imperial March Tab

Submitted by: larry nonads 
Song Title: imperial_march ( the good version) 
Artist: star_wars  

now i can tell you this is correct it may take a while but print this
out and try it for a while if any thing is wrong email me and ill 
correct it.
[ Tab from: http://www.guitartabs.cc/tabs/m/misc_soundtrack/imperial_march_tab_ver_2.html ]
6-0---0-5-9-7-5-----0-0-9-7-5-4-2-4-5----9-9-9-10-12-12-10-9-7-7-9-10
5--2-2---------2-4-5-----------------5-2-----------------------------
4---2-----------------------------------2----------------------------
3--------------------------------------------------------------------
2--------------------------------------------------------------------
1--------------------------------------------------------------------
or you can play it

6----9---9---9---9---2---2---2---2-----------------------------------
5-7-7-7-7-7-7-7-7-0-0-0-0-0-0-0-0------------------------------------
4--------------------------------------------------------------------
3--------------------------------------------------------------------
2--------------------------------------------------------------------
1--------------------------------------------------------------------


thanx for your time practice
Comments