Misc Soundtrack - Heartbreak High Theme Chords & Tabs

 

Heartbreak High Theme Chords & Tabs

Misc Soundtrack Chords & Tabs

Version: 1 Type: Tab 0 ratings
1 star 2 stars 3 stars 4 stars 5 stars
comments

Heartbreak High Theme Tab

   
   This is my interpretation of that happenin theme music for the
famous Gannon television teen drama Heartbreak high


The chord sequence is as follows

A...D...G...A...A...D...G...A easy


Then over the top you've got

e---------------------------------------------|
b------------------2-3-5---7b8--7--5------5---|
g--0h2-2--0h2--0----------------------7-------|
D---------------------------------------------|
A---------------------------------------------|
E---------------------------------------------|

[ Tab from: http://www.guitartabs.cc/tabs/m/misc_soundtrack/heartbreak_high_theme_tab.html ]
e--------------------------------------------------|
b------------------3-2-0---------------------------|
g--0h2-2--0h2--0---------2-------0-0-----0------2--|
D-----------------------------4-------4-----4-2----|
A--------------------------------------------------|
E--------------------------------------------------|


As with all these it best to listen to the music, the last time I
checked it was in key but if not...hey thats capos are for! It
sounds great on an electric


The BRIDGE goes

Em...G...Em...G...Em...G...Em...D slowly

then back into the fun above

The SOLO if you can call it that is played entirely on the G string

g--9-9----3b4-0--4------------

play this twice over the bridge chords, hold the 4 until you

speed back up for the funky unmistakable aussie rock chords above!

I hope its as good for you as it is for me, any comments welcome!


Later

Andypandy@merseymail.com
Comments