Misc Soundtrack - Harry Potter Theme Chords & Tabs

 

Harry Potter Theme Chords & Tabs

Misc Soundtrack Chords & Tabs

Version: 3 Type: Tab 0 ratings
1 star 2 stars 3 stars 4 stars 5 stars
comments

Harry Potter Theme Tab

E-------0--3--2--0--7--5--2---------0--3--2-----2-------------------|
B----0---------------------------------------4-----0-----0----------|
G-----------------------------------------------------0-------------|
D-------------------------------------------------------------------|
A-------------------------------------------------------------------|
E-------------------------------------------------------------------|
[ Tab from: http://www.guitartabs.cc/tabs/m/misc_soundtrack/harry_potter_theme_tab_ver_3.html ]
E---0--3--2--0--7--10--9--8--5--8--7--6-----3--0-----0--------------|
B-0----------------11-----9-----9--------0--------0-----------------|
G------------------12----10----10-----------------------------------|
D-------------------------------------------------------------------|
A-------------------------------------------------------------------|
E-------------------------------------------------------------------|


E--3-7---3-7---3-8--7-6-----2-3--7-6-----7----|
B--------------------------------------0------|
G------------------------------------3--------|
D---------------------------------------------|
A---------------------------------------------|
E---------------------------------------------|

E--3-7---3-7---3-10--9--8--5--8--7--6-----3--0-----------------------|
B----------------11-----9-----9--------0-----------------------------|
G----------------12----10----10--------------------------------------|
D--------------------------------------------------------------------|
A--------------------------------------------------------------------|
E--------------------------------------------------------------------|
Comments