Misc Soundtrack - Harry Potter Theme Chords & Tabs

 

Harry Potter Theme Chords & Tabs

Misc Soundtrack Chords & Tabs

Version: 2 Type: Tab 0 ratings
1 star 2 stars 3 stars 4 stars 5 stars
comments

Harry Potter Theme Tab

E-------0--3--2--0--7--5--3--0--------0--3--2--0--2--------
B----0-----------------------------0-----------------0-----
G----------------------------------------------------------
D----------------------------------------------------------
A----------------------------------------------------------
E----------------------------------------------------------

E---0--3--2--0--7--10--8--7--5--7--5--3----0--3--2--0---0-0
B-0-------------------------------------0-------------0----
G----------------------------------------------------------
D----------------------------------------------------------
A----------------------------------------------------------
E----------------------------------------------------------
[ Tab from: http://www.guitartabs.cc/tabs/m/misc_soundtrack/harry_potter_theme_tab_ver_2.html ]
Comments