Misc Soundtrack - Halloween Theme Chords & Tabs

 

Halloween Theme Chords & Tabs

Misc Soundtrack Chords & Tabs

Version: 5 Type: Tab 0 ratings
1 star 2 stars 3 stars 4 stars 5 stars
comments

Halloween Theme Tab

Halloween Theme Song
Tabbed by Kevin Cruz
[ Tab from: http://www.guitartabs.cc/tabs/m/misc_soundtrack/halloween_theme_tab_ver_5.html ]
e---19-------19-------19-------19-------19----20----|
B------17-17----17-17----17-17----17-17----17----17-|
G---------------------------------------------------|
D---------------------------------------------------|
A---------------------------------------------------|
E---------------------------------------------------|

e---19-------19-------19-------19-------19----20----|
B------17-17----17-17----17-17----17-17----17----17-|
G---------------------------------------------------|
D---------------------------------------------------|
A---------------------------------------------------|
E---------------------------------------------------|
Comments