Misc Soundtrack - Grizzly Man - Coyotes Chords & Tabs

 

Grizzly Man - Coyotes Chords & Tabs

Misc Soundtrack Chords & Tabs

Version: 1 Type: Tab

Grizzly Man - Coyotes Tab

   
-------------------------------------------------------------------------------
			     Coyotes - Richard Thompson
-------------------------------------------------------------------------------
This is a great son from the movie Grizzly Man.
I couldnt find a tab for it anywere so i decided to give
it a go myself. It turned out to be real easy to play. 

Tabbed by: Hasten

Tuning: Standard
[ Tab from: http://www.guitartabs.cc/tabs/m/misc_soundtrack/grizzly_man_coyotes_tab.html ]
e|-----5--------------|-----------5--------------|
B|--7-----5--7--3--0--|--3--5--7-----7--5--7--3--|
G|--------------------|--------------------------|
D|--------------------|--------------------------|
A|--------------------|--------------------------|
E|--------------------|--------------------------|

e|-----------3/5--------------|-----------5--------------|
B|--3--5--7-------5--7--3--0--|--3--5--7-----7--5--7--3--|
G|----------------------------|--------------------------|
D|----------------------------|--------------------------|
A|----------------------------|--------------------------|
E|----------------------------|--------------------------|


| /  slide up
| \  slide down
| h  hammer-on
| p  pull-off
| ~  vibrato
| +  harmonic
| x  Mute note
==============================================================================