Misc Soundtrack - Goldeneye Chords & Tabs

 

Goldeneye Chords & Tabs

Misc Soundtrack Chords & Tabs

Version: 1 Type: Tab 1 rating
1 star 2 stars 3 stars 4 stars 5 stars
comments

Goldeneye Tab

i think it is the goldeneye one, its not complete though  
b means break, like break one or 2 beats depending on which sounds best, 
and the (7x) means hit is 7 times, sorry if i am overly explaining this. 
1:---------------------------------------------------------------------- 
2:---------------------------------------------------------------------- 
3:-----------------------------3-2-b------------------------------------ 
4:----------------------------3------3-2-3-b---------------------------- 
5:-0(7x)-3-0(7x)-5-0(7x)-3-b-2---------------3-4-3-2-b------------------ 
6:-----------------------------------------------------1-3-5-b-5-5-b-5-7 
[ Tab from: http://www.guitartabs.cc/tabs/m/misc_soundtrack/goldeneye_tab.html ]
1:-----------------------------------------------------X---------------- 
2:-----------------------------------------------------X---------------- 
3:-----------------------------------------------------X------------3-2- 
4:-----------------------------------------------------X---3-2-B--2----- 
5:-----------------------------------------------------X--2------2------ 
6:-5-7-b-8-8-b-8-7-5-7-b-5-5-b-5-7-5-7-b-8-8-b-8-7-5-7-b-2-------------- 

1:------------------X------------3-2-b--2-6-5--------------------------- 
2:-------3-2-b------X----3-2-b--2------2-------------------------------- 
3:-b--2-------------X---2------2---------------------------------------- 
4:---2-----------OR-X--2------------------------------------------------ 
5:------------------X--------------------------------------------------- 
6:------------------b--------------------------------------------------- 
try it out and tell me what you think of it, and mail me the end if you 
can make it up or know it or know where to find it. 
gaberussell@hotmail.com

Comments