Misc Soundtrack - Godspell - Finale Chords & Tabs

 

Godspell - Finale Chords & Tabs

Misc Soundtrack Chords & Tabs

Version: 1 Type: Tab 0 ratings
1 star 2 stars 3 stars 4 stars 5 stars
comments

Godspell - Finale Tab

   
Godspell - Finale Tab

Opening Solo - Tricky, experiment with pull-offs and hammer-ons.

E x----------------------17----17-19----17----17-------17----17----|
B x-12-12-14-15-17-19-19----19-------19----19----17-19----19----15-|
G x----------------------------------------------------------------|
D x----------------------------------------------------------------|
A x----------------------------------------------------------------|
E x----------------------------------------------------------------|

Break # 1 - Organ and Bass
Oh God, I'm bleeding...

Power Chord Jam
[ Tab from: http://www.guitartabs.cc/tabs/m/misc_soundtrack/godspell_finale_tab.html ]
E x------------|
B x------------|
G x------6-/-7-|
D x-11-9-6-/-7-|
A x-11-9-4-/-5-|
E x-9--7-------|

Next Solo - Continues on a bit longer - just repeat the 17 - 19 jumps.

E x----------------------17----17-19----17----17-------17----17----|
B x-12-12-14-15-17-19-19----19-------19----19----17-19----19----15-|
G x----------------------------------------------------------------|
D x----------------------------------------------------------------|
A x----------------------------------------------------------------|
E x----------------------------------------------------------------|

That's really all there is to it. Experiment and have fun with it.

TABBED by ear from the movie soundtrack circa 1973

Have fun and enjoy!
Comments