Misc Soundtrack - Godfather Theme Chords & Tabs

 

Godfather Theme Chords & Tabs

Misc Soundtrack Chords & Tabs

Version: 7 Type: Tab 0 ratings
1 star 2 stars 3 stars 4 stars 5 stars
comments

Godfather Theme Tab

For those who prefer the low pitched version of the godfather rather than the high pitched version.
[ Tab from: http://www.guitartabs.cc/tabs/m/misc_soundtrack/godfather_theme_tab_ver_7.html ]
|------------------------------------------------------------------------|
|---1-4-3-1-4-1-3-1---1-------1-4-3-1-4-1-3-----------------3--------1---|
|-0-----------------3---0---0---------------0-0---------1-4------1-4-----|
|-----------------------------------------------4-3---3--------3---------|
|-----------------------------------------------------------------------3|
|------------------------------------------------------------------------|
                   1stEnd 2ndEnd                  
|-------------------|---| |---|
|-------------------|---| |---|
|---3-1-0-3-1-1-0-0-|---| |---|
|-1-----------------|4-5| |---|  (X2)
|-------------------|---| |2-3|
|-------------------|---| |---| 
          

|--------------------------------------|
|------------3-1-----------------------|
|-5-5-4-3--3-----0-1-0--0-3-0------1--0|
|-----------------------------3--3---3-|
|--------------------------------------|
|--------------------------------------|
Comments