Misc Soundtrack - Godfather Theme Chords & Tabs

 

Godfather Theme Chords & Tabs

Misc Soundtrack Chords & Tabs

Version: 3 Type: Tab 0 ratings
1 star 2 stars 3 stars 4 stars 5 stars
comments

Godfather Theme Tab

The Godfather Theme
Song by: Henry Mancini
Tabbed by: OutlawTorn925@hotmail.com


Intro:
|--------------------------------------------------|
|-------10--8--7--10--8--8--7--7-------------------|
|-----7--------------------------------------------|
|--9-----------------------------------------------|
|--------------------------------------------------|
|--------------------------------------------------|


Main Riff:
|-----7--10--9--7--10--7--9--7----------|
|--7----------------------------8-10-7--|
|---------------------------------------|
|---------------------------------------|
|---------------------------------------|
|---------------------------------------|
[ Tab from: http://www.guitartabs.cc/tabs/m/misc_soundtrack/godfather_theme_tab_ver_3.html ]
                                  
|-----7--10--9--7--10--7--9--7-----------|
|--7----------------------------5/7-6-5--|
|----------------------------------------|
|----------------------------------------|
|----------------------------------------|
|----------------------------------------|


|--------6--9--------6--7----------|
|--5--8--------5--8----------------|
|----------------------------------|
|----------------------------------|
|----------------------------------|
|----------------------------------|


|----------------------------------------------------|
|--------10--8--7--10--8--8--7--7--------------------|
|-----7----------------------------------------------|
|--9-------------------------------8--9--------------|
|----------------------------------------------------|
|----------------------------------------------------|

                     
|--7--7--6--5-----/9--7-----------------------------------------|
|------------------------8--7------7--10--7--5----5--8--6--7----|
|---------------------------------------------------------------|
|---------------------------------------------------------------|
|---------------------------------------------------------------|
|---------------------------------------------------------------|
Comments