Misc Soundtrack - Godfather Theme Chords & Tabs

 

Godfather Theme Chords & Tabs

Misc Soundtrack Chords & Tabs

Version: 1 Type: Tab 4 ratings
1 star 2 stars 3 stars 4 stars 5 stars
comments

Godfather Theme Tab

The Godfather Theme – by Henry Mancini

e-----0--3-2-0-3-0-2-0-----------0-3-2-0-3-0-2-0-----------------------
B--0-------------------1-3-0---0-----------------1-0-------------------
G----------------------------------------------------2~~---------------
D----------------------------------------------------------------------
A----------------------------------------------------------------------
E----------------------------------------------------------------------

[ Tab from: http://www.guitartabs.cc/tabs/m/misc_soundtrack/godfather_theme_tab.html ]
e-------2~~------------------------------------------------------------
B---1-4-------1-4-5~~---3-1-1-0-3-1-1-0-0-4-5~~------------------------
G-2---------2----------------------------------------------------------
D---------------------2------------------------------------------------
A----------------------------------------------------------------------
E----------------------------------------------------------------------


I just did this from memory, so it could be wrong. 
Comments