Misc Soundtrack - Godfather Chords & Tabs

 

Godfather Chords & Tabs

Misc Soundtrack Chords & Tabs

Version: 2 Type: Tab 0 ratings
1 star 2 stars 3 stars 4 stars 5 stars
comments

Godfather Tab

The Godfather Theme
Nino Rota

This is an awesome movie, i love the song and it was easy to tab.
I only have the first part but its as good as i could do.

|-------------------------------------|
|-------------------------------------|
|----11-14-13-11-14-11-13-11----------|
|-11-------------------------12-14-11-|
|-------------------------------------|
|-------------------------------------|
[ Tab from: http://www.guitartabs.cc/tabs/m/misc_soundtrack/godfather_tab_ver_2.html ]
|-------------------------------------|
|-------------------------------------|
|----11-14-13-11-14-11-13-11----------|
|-11-------------------------12-11-9--|
|-------------------------------------|
|-------------------------------------|

|-------------|-------------|----------------------------------|
|-------------|-------------|----------------------------------|
|-------------|-------------|----------------------------------|
|-12-14-16-17-|-10-12-14-15-|-9-12-14-13-10-14-11-13-11-9-10---|
|-------------|-------------|--------------------------------9-|
|-------------|-------------|----------------------------------|

Eventually I might get the rest but this is just for now.
If you have any questions i really doubt i could answer them 
but my e-mail is JRingoF@juno.com
Comments