Misc Soundtrack - Ghostbusters Chords & Tabs

 

Ghostbusters Chords & Tabs

Misc Soundtrack Chords & Tabs

Version: 1 Type: Tab 0 ratings
1 star 2 stars 3 stars 4 stars 5 stars
comments

Ghostbusters Tab

   
The number under the corresponding note satnds for the length since the
song is too complicated to just do in plain tab.
1=whole note
2=half note
3=dotted half note
4=quarter note
6=dotted quarter note
8=eigth note
12=dotted eight note
16=sixteenth note
[ Tab from: http://www.guitartabs.cc/tabs/m/misc_soundtrack/ghostbusters_tab.html ]
INTRO:
Guitar:
e---------------------------------------------------------------------------------
B---------------------------------------------------------------------------------|
G-3-4-3-4-3-4-3-4-3-4-3-4-3-4-3-4-3-4-3-4-3-4-3-4-3-4-3-4-3-4-3-4-3-4-3-4-3-4-3-4-|
D---------------------------------------------------------------------------------|
A---------------------------------------------------------------------------------V
E---------------------------------------------------------------------------------
  8 8 8 8 8 8 8 8 8 8 8 8 8 8 8 8 8 8 8 8 8 8 8 8 8 8 8 8 8 8 8 8 8 8 8 8 8 8 8 8
Bass:
G-3-------12------11------10------9-------19------15--------------15--------------|
D---------------------------------------------------------------------------------|
A---------------------------------------------------------------------------------|
E---------------------------------------------------------------------------------V
  2       2       2       2       2       2       1               1
RIFF 1                  RIFF 2                  
Guitar:                 
e-------------5---4---  e-------4---------------------------------- 
B-------------5---5---  B-0--0------0--2---------------------------
G-4-4---------6---4---  G----------------2--------4--4--4--4--2-4--
D-4-4-----------------  D------------------------------------------
A---------------------  A------------------------------------------
E---------------------  E------------------------------------------
  8 8         8   8       16 16 8   8  8 8        16 16 16 16 8 8
Bass:
G-------------2-2-----  G--------------2-2------------------2-2----
D-----0--1--4-----2-2-  D------0--1--4-----2-2------0--1--4-----2-2
A-2-2-----------------  A-2-2------------------2-2-----------------
E---------------------  E------------------------------------------
  8 8 16 16 8 8 8 8 8     8 8  16 16 8 8 8 8 8 8 8  16 16 8 8 8 8 8
RIFF 3 
Guitar:
e-------------------------------------------
B-3---0--3---0--3---0--3---0--3--0----------
G----------------------------------2--3--4--
D-------------------------------------------
A-------------------------------------------
E-------------------------------------------
  12  16 12  16 12  16 12  16 8  8 16 16 16
Bass:
G------4---------2---------2----------------
D-------------------------------------------
A-2---------2---------2---------2--2--2--2--
E-------------------------------------------
  4    4    4    4    4    4    8  8  8  8

Play Intro First
The song pattern is:
Riff 1 x4
Riff 2 x2
Riff 1 x8
Riff 3 x4
Comments