Misc Soundtrack - Get A Clue Chords & Tabs

 

Get A Clue Chords & Tabs

Misc Soundtrack Chords & Tabs

Version: 1 Type: Tab 1 rating
1 star 2 stars 3 stars 4 stars 5 stars
comments

Get A Clue Tab

   
                      SIMON AND MILO
                       "GET A CLUE"
               FROM DISNEY'S MOVIE "GET A CLUE"
                   TABBED BY CESAR DAVILA!!!!!!
                   EMAIL: meinside70@hotmail.com


G
I gotta a little hunch

                 D
That there is something

                 C
Going on now

G
The clothes I bought


The friends I got

D                           C
My teacher had a meltdown



BRIDGE
-----------------------------------
-----------------------------------
-----------------------------------
-----------------------------------
-3-2-0-----3-2-0-----3-2-0---0-----
-------3----------3--------3-------

Bridge 1:
Then I look at me       
And I start to see     
An I push inside
Tells me what I must do



Chorus:


Wake up who knew


It’s me its you 

              G
Get A Clue

  D                   C
It’s there inside of you


The girls: Oh yeah lets go

G
Get A Clue 

D                         C
Theirs nothing you can’t do

E                             C
Nothings ever quite what it seems

E                            A
Just look a little closer at me


Wake up who knew
Its me its you 
Get A Clue

G  D   C

THEY ALSO PLAY THIS SOLO THROUGHOUT THE SONG

---7--10-------------
-8--------7--5------
--------------------
--------------------
-------------------
--------------------


Milo: That’s the way it goes now

G
Did you ever see the world around you

D                          C
Shift before your eyes


The Girls: Your eyes, your eyes

G
The people you ignore me for

D                           C
They took you by surprise


The Girls: Your eyes, your eyes


Bridge 2:
Then you look at me
And I start to see
That somethin happens
When I’m next to you


CHORUS: GO TO TOP

            G     D       C
The girls: Oh yeah, lets go

    
Milo: that’s the way it goes now

           G       D       C
The girls: Oh yeah, lets go

[ Tab from: http://www.guitartabs.cc/tabs/m/misc_soundtrack/get_a_clue_tab.html ]
PLAY THIS IN THE NEXT VERSE
----------------------------------------------
-----------------------------------------------
-----------------------------------------------
----------------------------------------------
------2-------2--------0------0-----0----0---3
-3-------3----------3------3-----3----3-------

The first one game on a Tuesday afternoon
When I first saw you
The next one game to my surprise
When I found out what I had to do
Take a photograph of me
Hang it in a gallery
Sit around and watch TV
Turn around and then you’d look at me
Yeah, yeah


Monkey: Yappapie


The girls: Oh yeah lets go

G   D   C  X2


E
I gotta little hunch

                 B
That there is somethin 

             A
Goin on now

E             
The clothes I bought


The friends I got

B                          A
My teacher had a meltdown


Bridge 
------------------------------------------
-------------------------------------------
-------------------------------------------
--7--6--4-----7--6--4----7---6--4---4--------
----------7-----------7-----------7----------
--------------------------------------------
Then I look at me       
And I start to see     
An I push inside
Tells me what I must do
           

            E
Get A Clue

B                          A
It’s there in side of you


The Girls: Oh yeah lets go

          E
Get A Clue

B                        A
Theirs nothing you cant do

E                            C
Nothings ever quite what It seems

E                             A
Just look a little closer at me


Wake up who knew


Its me its you

E           B     A
Get a clue



The Girls: Oh yeah lets go

              E   B      A
Get a clue


The Girls: Oh yeah lets go


Wake up who knew
Its me its you           
Get A Clue       E B A


The Girls: Oh yeah lets go


Milo: that’s the way it goes now   E  B  C


The Girls: Oh yeah lets go

E
Wake up who knew
Its me its you
Get A Clue



THATS THE SONG, IF YOU HAVE ANY QUESTIONS E-MAIL CESAR DAVILA AT
meinside70@hotmail.com

SEE YOU LATER!!!!!!!!!!!!!!!!!!!!!
Comments