Misc Soundtrack - From Dusk Till Dawn Chords & Tabs

 

From Dusk Till Dawn Chords & Tabs

Misc Soundtrack Chords & Tabs

Version: 1 Type: Tab 0 ratings
1 star 2 stars 3 stars 4 stars 5 stars
comments

From Dusk Till Dawn Tab

   
Tito & Tarantula - After Dark from The "From Dusk till Dawn Soundtrack"

tabbed by Purplefly (purplefly@gmx.net)

d = Downstroke, u = Upstroke, p = pull, h = hammer 
A = 10, B = 11, C = 12, ...


#### GUITAR 1: clean ##### 

Verse
     d  d*   u     d  d  d  u
e |-----7-----7--|--------5--5--|
B |-----7-----7--|--------5--5--|
G |-----8-----8--|--------6--6--|
D |-----9--------|--------7-----|
A |--9--9--------|--7--7--7-----|
E |--7--7--------|--5--5--5-----|

* play this downstroke slowly


Bridge
     d  d  d  d     d  d  d  d
e |--------------|--------------|
B |--------------|--------------|
G |--9--9--9--9--|--7--7--7--7--|
D |--9--9--9--9--|--7--7--7--7--|
A |--7--7--7--7--|--5--5--5--5--|
E |--------------|--------------|


Chorus
     d  d  d  d     d  d  d  d
e |--------------|--------------|
B |--------------|--------------|
G |--9--9--9--9--|--7--7--7--7--|   
D |--9--9--9--9--|--7--7--7--7--|  play this part 4x
A |--7--7--7--7--|--5--5--5--5--|
E |--------------|--------------|

     d  d  d  d     d  d  d  d
e |--------------|--------------|
B |--------------|--------------|
G |--B--B--B--B--|--9--9--9--9--|   
D |--B--B--B--B--|--9--9--9--9--|  play this part 3x 
A |--9--9--9--9--|--7--7--7--7--|
E |--------------|--------------|

     d  d  d  d     d  d  d  d
e |--------------|--------------|
B |--------------|--------------|
G |--B--B--B--B--|--B--B--B--B--|   
D |--B--B--B--B--|--B--B--B--B--| 
A |--9--9--9--9--|--9--9--9--9--|
E |--------------|--------------|

#### GUITAR 2 (Solo Guitar): disorted #####

Intro:
e |-------7hAp7------------------|
B |--7hA---------A--7------------|
G |--------------------9---------|
D |-----------------------9p7h9--|
A |------------------------------|
E |------------------------------|
[ Tab from: http://www.guitartabs.cc/tabs/m/misc_soundtrack/from_dusk_till_dawn_tab.html ]
and now the FDTD Solo, which I borrowed from another tab:

Date: Wed, 3 Jun 1998 15:00:52 +0200
From: Stephan Lindemann 
Subject: t/tito_and_tarantula/after_dark.crd

After Dark - Solo       Tito & Tarantula  

E :-------------------|------------------|-----------------------|
B :-------------------|------------------|-----------------------|
G :----11-9-----------|------11-p9-9-----|-------11^-9-11^-9-11^-|
D :---------9---------|--------------9-9-|12-9-------------------|
A :7-9----------------|7-7-9-------------|-----7*----------------|
E :-----------7-10-10-|------------------|-----------------------|

E :-----------------------|----7-10---------7-|h10-7~-11^-13^-7--------|
B :-----7-10^-------------|-------------------|------------------------|
G :9-11-------11----------|9------------------|------------------------|
D :--------------9-h12-12-|--9------9-12-12---|-----------------9-12-9-|
A :-----------------------|-------------------|------------------------|
E :-----------------------|-------------------|------------------------|

E :------------------|
B :------------------|
G :9^----------------|
D :---9-12-9---------|
A :------------------|
E :------------------|


Tabbed by Stephan Lindemann
For questions remarks or corrections
Stephan-lindemann@t-online.de

Lyrics:

[Verse] 
Watching her, strolling in the night, so white, 

[Bridge] Wondering, why it's only after Dark

[Verse] 
In her eyes, the distant fire light burns bright,

[Bridge] 
Wondering, why it's only after Dark

[Chorus]
I find myself in the room, feel the fever of my doom,
Falling falling through the floor, I'm knocking on the Devils door 

Yeah

[Verse]  
In the dawn, I wake up the find, her gone,

[Bridge] 
Wondering, why there's only after dark

[Solo]

[Chorus]
Burning burning in the flame Now I know her secret name          
You can tear her temple down But she'll be back and rule again 

[Verse]      
In my heart A deep and dark and lonely part 

[Bridge]
Wants her and waits for 

B           C           d           E           F#    
After Dark  After Dark  After Dark  After Dark  After Daaaaark
Comments