Misc Soundtrack - Friends Theme Chords & Tabs

 

Friends Theme Chords & Tabs

Misc Soundtrack Chords & Tabs

Version: 3 Type: Tab 0 ratings
1 star 2 stars 3 stars 4 stars 5 stars
comments

Friends Theme Tab

e|----------------------------------|INTRO 
B|----------------------------------|
G|-----5b6--5b6p4--2--0--0--2h4--2--|
D|----------------------------------|
A|--0-------------------------------|
E|----------------------------------|

e|----------3XX-XXX--------------------2XX-XXX----|VERSE
B|-2XX-XXX--2XX-XXX--2XX-XXX-----------3XX-XXX--2-|
G|-2XX-XXX--3XX-XXX--2XX-XXX--1XX-XXX--2XX-XXX--2-|
D|-2XX-XXX-----------2XX-XXX--2XX-XXX-----------2-|
A|----------------------------2XX-XXX-------------|
E|------------------------------------------------|

e|----------3XX-XXX---|CHORUS
B|-2XX-XXX--2XX-XXX---|
G|-2XX-XXX--3XX-XXX--1|
D|-2XX-XXX-----------2|
A|-------------------2|
E|--------------------|
[ Tab from: http://www.guitartabs.cc/tabs/m/misc_soundtrack/friends_theme_tab_ver_3.html ]
e|--------------------------------------------------------------|SOLO
B|-2-2-2-2-2-2-2-2-2-2--0-0---0-0---0-----0h2-----2--0--0-------|
G|--------------------------------------2------------------2--1-|
D|---------------------------------------------2h4--------------|
A|--------------------------------------------------------------|
E|--------------------------------------------------------------|

e|-----------------------------------------------------------------|
B|------------------------------------------------------------0----|
G|--------------------------------------------2-2-2--1-1-1--2---2--|
D|-4--2------------------------------------------------------------|
A|-------4--2--4-4-4-4-4-4-4-4-----0h4--2--2-----------------------|
E|-----------------------------2-2---------------------------------|

e|--0--------------------2--5-------|
B|--------3--3--0--2--3-------------|
G|-----2----------------------------|
D|----------------------------------|
A|----------------------------------|
E|----------------------------------|
Comments