Misc Soundtrack - Flintstones Theme Chords & Tabs

 

Flintstones Theme Chords & Tabs

Misc Soundtrack Chords & Tabs

Version: 1 Type: Tab 0 ratings
1 star 2 stars 3 stars 4 stars 5 stars
comments

Flintstones Theme Tab

Flintstone Intro Part!
It's my first tab, but It sounds good!

Dana Dell
duckypunk09@hotmail.com
Email me with anything!!
[ Tab from: http://www.guitartabs.cc/tabs/m/misc_soundtrack/flintstones_theme_tab.html ]
E------1--------------------------------------
B-1-------3--1-----1--------------1-----------
G---------------------3--2--2--3--------0--2--
D---3-----------3--------------------3--------

E------1--------------------------------------
B-1-------3--1-----1--------------1-----------
G---------------------3--2--2--3--------0-----
D---3-----------3--------------------3-----3--

Hope you enjoy!!
Comments