Misc Soundtrack - Flintstones Theme Chords & Tabs

 

Flintstones Theme Chords & Tabs

Misc Soundtrack Chords & Tabs

Version: 1 Type: Bass Tab 0 ratings
1 star 2 stars 3 stars 4 stars 5 stars
comments

Flintstones Theme Bass Tab

Flinstones...


g|-----------------------------------------------------------------------|
d|-----------12--9-------------------------------------------------------|
a|--12----------------12-------------12--10--9-9-10--12------------------|
e|------10------------------10-----------------------------10--12--9-----|


g|-----------------------------------------------------------------------|
d|-----------12--9-------------------------------------------------------|
a|--12----------------12-------------12--10--9-9-10--12------------------|
e|------10------------------10-----------------------------10--12--10----|

[ Tab from: http://www.guitartabs.cc/tabs/m/misc_soundtrack/flintstones_theme_btab.html ]
g|------------------------------------------------------------------------|
d|11---------12---11--11----9-9-------9----9-------12---9--9----------9---|
a|----9---------------------------12---------------------------12--12--12-|
e|---------------------------------------------12-------------------------|


g|-----------------------------------------------------------------------|
d|----------12--10-------------------------------------------------------|
a|12----------------12-------------12--10----9--9--10--12----------------|
e|----10-----------------10--------------------------------10--12--------|

g|--------------------------------------9--------------------------------|
d|---------------------------------12------12----------------------------|
a|9--10--12-------------9--10--12----------------------------------------|
e|-----------10--12------------------------------------------------------|
Comments