Misc Soundtrack - Final Fantasy X Chords & Tabs

 

Final Fantasy X Chords & Tabs

Misc Soundtrack Chords & Tabs

Version: 1 Type: Tab 0 ratings
1 star 2 stars 3 stars 4 stars 5 stars
comments

Final Fantasy X Tab

Hey fellow guitar players!
This is my first tab, so it might be wrong. If you have any comments, corrections, 
or suggestions, please feel free to e-mail me at edb87@yahoo.com


This is OtherWorld, and it's from the Final Fantasy X soundtrack. The song rules, as well
as the rest of the soundtrack. Pick the game up if you haven't played it. It's for the PS2.
I didn't get the first bridge riff (screechy part), or the solo, or the chorus/bridge. 
Hey, I just figured it out! Expect this to be updated when I figure more out.
 
MAIN RIFF - GO HEAVY ON THE DISTORTION (PALM MUTE THE X's)
                                                                        
E||------------12b-------|------------9b-------|------------12b-------|
B||------------12b-------|------------9b-------|------------12b-------|
G||----------------------|---------------------|----------------------|
D||--4--4----------------|--4--4---------------|--4--4----------------|
A||--4--4----------------|--4--4---------------|--4--4----------------|
E||--2--2----------------|--2--2---------------|--2--2----------------|


                                                                        
--------------------------|------------12b-------|------------9b-------|
--------------------------|------------12b-------|------------9b-------|
--------------------------|----------------------|---------------------|
--6--5--6--5--6--5--6--3--|--4--4----------------|--4--4---------------|
--6--5--6--5--6--5--6--3--|--4--4----------------|--4--4---------------|
--4--3--4--3--4--3--4--1--|--2--2----------------|--2--2---------------|


                                                                             
------------12b-------|--------------------------|--------------------------|
------------12b-------|--------------------------|--------------------------|
----------------------|--------------------11/---|--------------------------|
--4--4----------------|--6--5--6--5--6--5--11/---|--x--x--7/-6--x--x--7/-6--|
--4--4----------------|--6--5--6--5--6--5--9/----|--x--x--7/-6--x--x--7/-6--|
--2--2----------------|--4--3--4--3--4--3--9/----|--x--x--5/-4--x--x--5/-4--|

[ Tab from: http://www.guitartabs.cc/tabs/m/misc_soundtrack/final_fantasy_x_tab.html ]
                                                                                
--------------------------|--------------------------|-------------------------|
--------------------------|--------------------------|-------------------------|
--------------------------|--------------------------|-------------------------|
--x--x--7--x--6/-5--x--4--|--x--x--7/-6--x--x--7/-6--|--x--x--7--x--6/-5--4----|
--x--x--7--x--6/-5--x--4--|--x--x--7/-6--x--x--7/-6--|--x--x--7--x--6/-5--4----|
--x--x--5--x--4/-3--x--2--|--x--x--5/-4--x--x--5/-4--|--x--x--5--x--4/-3--2----|


                                                      
--------------------------|--------------------------|
--------------------------|--------------------------|
--------------------------|--------------------------|
--x--x--7/-6--x--x--7/-6--|--x--x--7--x--6/-5--x--4--|
--x--x--7/-6--x--x--7/-6--|--x--x--7--x--6/-5--x--4--|
--x--x--5/-4--x--x--5/-4--|--x--x--5--x--4/-3--x--2--|


                                                                        
--------------------------|-------------------------|------------------|
--------------------------|-------------------------|------------------|
--------------------------|-------------------------|------------------|
--x--x--7/-6--x--x--7/-6--|--x--x--7--x--6/-5--4----|------------------|
--x--x--7/-6--x--x--7/-6--|--x--x--7--x--6/-5--4----|------------------|
--x--x--5/-4--x--x--5/-4--|--x--x--5--x--4/-3--2----|------------------|


                                                      
--------------------------|--------------------------|
--------------------------|--------------------------|
--------------------------|--------------------------|
--x--x--7/-6--x--x--7/-6--|--x--x--7--x--6/-5--x--4--|
--x--x--7/-6--x--x--7/-6--|--x--x--7--x--6/-5--x--4--|
--x--x--5/-4--x--x--5/-4--|--x--x--5--x--4/-3--x--2--|


                                                                                
--------------------------|-------------------------|--------------------------|
--------------------------|-------------------------|--------------------------|
--------------------------|-------------------------|--------------------------|
--x--x--7/-6--x--x--7/-6--|--x--x--7--x--6/-5--4----|--x--x--7/-6--x--x--7/-6--|
--x--x--7/-6--x--x--7/-6--|--x--x--7--x--6/-5--4----|--x--x--7/-6--x--x--7/-6--|
--x--x--5/-4--x--x--5/-4--|--x--x--5--x--4/-3--2----|--x--x--5/-4--x--x--5/-4--|


                                                                                
--------------------------|--------------------------|-------------------------|
--------------------------|--------------------------|-------------------------|
--------------------------|--------------------------|-------------------------|
--x--x--7--x--6/-5--x--4--|--x--x--7/-6--x--x--7/-6--|--x--x--7--x--6/-5--4----|
--x--x--7--x--6/-5--x--4--|--x--x--7/-6--x--x--7/-6--|--x--x--7--x--6/-5--4----|
--x--x--5--x--4/-3--x--2--|--x--x--5/-4--x--x--5/-4--|--x--x--5--x--4/-3--2----|



SMALL FILL AFTER THE SCREECHY BRIDGE                                                                               
------------------------|
------------------------|
------------------------|
--4--4--4--4--4/-5------|
--4--4--4--4--4/-5------|
--2--2--2--2--2/-3------|


Comments