Misc Soundtrack - Exorcist Theme Chords & Tabs

 

Exorcist Theme Chords & Tabs

Misc Soundtrack Chords & Tabs

Version: 1 Type: Bass Tab

Exorcist Theme Bass Tab

Misc Soundtrack
Exorcist Theme (Bass)
Tuning: Standard
Transcribed by Soch Hean

Intro: Main Bassline (0:39)
|-------------------------------------------------------------------------|
|---------------5------5------------------7--------5------5---------------|
|---------5-7-5-----------5--3-2-------------5-7-5-----------5--3-2-------|
|-5-5--5----------3-3------------3---5-5-------------3-3------------3-----| (x3)

(1:16)
|-------------------------------------------------------------------------|
|-------------------------------------------------------------------------|
|--------------------------------------5---5------------------------------|
|-5--5-----3--3-----1--1-----0--0-------------5-5-----0--0-----5--5-------| (x2)

(2:04)
|--------------------------------------------------------------------|
|-----7----------5------5--------------------------------------------|
|----------5-7-5-----------5--3-2--------------------5-----7---------|
|-5-5---5----------3-3------------3----0-0--0----5-7---5-7----5---3--|
[ Tab from: http://www.guitartabs.cc/tabs/m/misc_soundtrack/exorcist_theme_btab.html ]
|-----------------|
|-----------------|
|-----5-3-2-------|
|-5-7--------3----|

|--------------------------------------------------------------------|
|-----7----------5------5--------------------------------------------|
|----------5-7-5-----------5--3-2--------------------5-----7---------|
|-5-5---5----------3-3------------3----0-0--0----5-7---5-7----5---3--|

|-----------------|
|-----------------|
|-----5-3-2-------|
|-5-7--------3----|

(2:29)
|-------------------------------------------------------------------------|
|---------------5------5------------------7--------5------5---------------|
|---------5-7-5-----------5--3-2-------------5-7-5-----------5--3-2-------|
|-5-5--5----------3-3------------3---5-5-------------3-3------------3-----| (x2)

Outro/Ending: (2:53)
|-------------------------------------------------------------------------|
|-------------------------------------------------------------------------|
|--------------------------------------5---5------------------------------|
|-5--5-----3--3-----1--1-----0--0-------------5-5-----0--0-----5--5-------|