Misc Soundtrack - Exorcist Chords & Tabs

 

Exorcist Chords & Tabs

Misc Soundtrack Chords & Tabs

Version: 2 Type: Tab 0 ratings
1 star 2 stars 3 stars 4 stars 5 stars
comments

Exorcist Tab

this is my version of mike oldfeild's tubular bells (the theme 
tune to the exorsist) this is the main riff and not the guitar part
although its not 100% true to the origional it is really cool and 
sounds good.
play these in parallel to each other as they set out 
[ Tab from: http://www.guitartabs.cc/tabs/m/misc_soundtrack/exorcist_tab_ver_2.html ]
guitar one 
e)---0------------------------------------------0-------------------
B)---0------------------------------------------0-------------------
G)------------------------------------------------------------------
D)------------------------------------------------------------------
A)------------------------------------------------------------------
E)------------------------------------------------------------------

guitar two
e)----0-2-3p2p0-5-3-2-3-2--0-2-3p2p0-5-3-2-3-2--0-2-3p2p0-5-3-2-3-2-etc.
B)---0--------------------------------------------------------------
G)------------------------------------------------------------------
D)------------------------------------------------------------------
A)------------------------------------------------------------------
E)------------------------------------------------------------------

enjoy :o)
email me @ barry_fallon2000@hotmail.com
Comments