Misc Soundtrack - Endless Summer 2 Theme Chords & Tabs

 

Endless Summer 2 Theme Chords & Tabs

Misc Soundtrack Chords & Tabs

Version: 1 Type: Bass Tab 0 ratings
1 star 2 stars 3 stars 4 stars 5 stars
comments

Endless Summer 2 Theme Bass Tab

   
!!! usa !!!Wow. this is easy!!

Standard tuning (e,a,d,g)

          RIFF ONE
        ska upstrokes
G-| ----------------------| |
D-| ----------------------|%|
A-| ----------------------|%|
E-| -9-9-9-9s7-7-7-7------| |
[ Tab from: http://www.guitartabs.cc/tabs/m/misc_soundtrack/endless_summer_2_theme_btab.html ]
          RIFF TWO
       Upstokes still
G-| ----------------------| |
D-| ----------------------|%|
A-| ----------------------|%|
E-| -7-7-7-7s5-5-5-5------| |

         RIFF THREE
G-| ----------------------| |
D-| ----------------------|%|
A-| ----------------------|%|
E-| -5-5-5-5-5-7----------| |

            OUTRO

G-| ----------------|
D-| ----------------|
A-| ----------------|
E-| -12-8-10--------|

Bob!~!~!~!~!~!
roymoose@aol.com
Comments