Misc Soundtrack - Edelweiss Chords & Tabs

 

Edelweiss Chords & Tabs

Misc Soundtrack Chords & Tabs

Version: 1 Type: Tab 3 ratings
1 star 2 stars 3 stars 4 stars 5 stars
comments

Edelweiss Tab

edelweiss 
- from sound of music
tabbed by Jenn

e------|-5-|-3----|---|-----|-------|-0-|---|-----|-5-|-3---
B--0-3-|---|----3-|-1-|-0-0-|-0-1-3-|---|-3-|-0-3-|---|---3-
G------|---|------|---|-----|-------|---|---|-----|---|-----
D------|---|------|---|-----|-------|---|---|-----|---|-----
A------|---|------|---|-----|-------|---|---|-----|---|-----
E------|---|------|---|-----|-------|---|---|-----|---|-----
[ Tab from: http://www.guitartabs.cc/tabs/m/misc_soundtrack/edelweiss_tab.html ]
e----|-----|---0-2-|-3-|-3-|-5-----|-2-0---|-----|-3-|-0-3--
B--1-|-0-3-|-3-----|---|---|---3-3-|-----3-|-0-3-|---|------
G----|-----|-------|---|---|-------|-------|-----|---|------
D----|-----|-------|---|---|-------|-------|-----|---|------
A----|-----|-------|---|---|-------|-------|-----|---|------
E----|-----|-------|---|---|-------|-------|-----|---|------

e--5-3-|-2-|---|-----|-5-|-3---|---|-----|---0-2-|-3-|-3----
B------|---|-3-|-0-3-|---|---3-|-1-|-0-3-|-3-----|---|------
G------|---|---|-----|---|-----|---|-----|-------|---|------
D------|---|---|-----|---|-----|---|-----|-------|---|------
A------|---|---|-----|---|-----|---|-----|-------|---|------
E------|---|---|-----|---|-----|---|-----|-------|---|------


no rhythm here, just the bars....it's 3/4

I had a few requests for this song, so here y'all go!!
party hard, rock on, and get laid as often as possible
Comments