Misc Soundtrack - Dueling Banjos Chords & Tabs

 

Dueling Banjos Chords & Tabs

Misc Soundtrack Chords & Tabs

Version: 1 Type: Tab 0 ratings
1 star 2 stars 3 stars 4 stars 5 stars
comments

Dueling Banjos Tab

Song title: Deliverance (Dueling Banjos)
Transcribed by: Jonathan Chasteen

Intro:

--0-1-3-0-1---0-----|
------------3---1-3-|
--------------------|
--------------------|  x2 or 2 guitars
--------------------|
--------------------|

The yankee doodle part:
[ Tab from: http://www.guitartabs.cc/tabs/m/misc_soundtrack/dueling_banjos_tab.html ]
---------0---0-----------0--------------0-1------------------|
---1-1-3---1---3---1-1-3---1--0---1-1-3-----3-1-0-----0-1--1-|
-0---------------0--------------0-----------------0-2--------|
-------------------------------------------------------------|
-------------------------------------------------------------|
-------------------------------------------------------------|


----------------------------------------------------------0--|
---0-------0-1------------------0--------0-1-----1-0-3-1--1--|
-2---2-0-2------0--2------0---2---2-0-2------2-0----------0--|
---------------------3-2-------------------------------------|
-------------------------------------------------------------|
-------------------------------------------------------------|
Comments