Misc Soundtrack - Desperado Chords & Tabs

 

Desperado Chords & Tabs

Misc Soundtrack Chords & Tabs

Version: 1 Type: Tab 0 ratings
1 star 2 stars 3 stars 4 stars 5 stars
comments

Desperado Tab

this is the song that antonia banderas plays in the bar at the start 
of the movie. how the hell the he can play this and sing is a bit 
beyond me. 
play this as fast as hell.

verse/intro:

e)------7--7-7-7-7-8-7-7-7-8-7--------------
B)-----8---8-8-----------------10-8-10------
G)----9-------------------------------------
D)---9--------------------------------------
A)------------------------------------------
E)------------------------------------------

[ Tab from: http://www.guitartabs.cc/tabs/m/misc_soundtrack/desperado_tab.html ]
e)------------------------------------------
B)-----10-10-10-10-12-10-10-10-12-10-8-7-8--
G)----9-------------------------------------
D)---9--------------------------------------
A)------------------------------------------
E)------------------------------------------


e)------7--7-7-7-7-8-7-7-7-8-7--------------
B)-----8---8-8-----------------10-8-10------
G)----9-------------------------------------
D)---9--------------------------------------
A)------------------------------------------
E)------------------------------------------


e)-------------------------------------------
B)-----10-10-10-10-s12-10-10-10-s12-10-8-7-8-
G)----9--------------------------------------
D)---9---------------------------------------
A)-------------------------------------------
E)-------------------------------------------

email me:
barry_fallon2000@hotmail.com
Comments