Misc Soundtrack - Darth Vaders Theme Chords & Tabs

 

Darth Vaders Theme Chords & Tabs

Misc Soundtrack Chords & Tabs

Version: 1 Type: Tab 5 ratings
1 star 2 stars 3 stars 4 stars 5 stars
comments

Darth Vaders Theme Tab

e---------------------------------------
B---------------------3-3-3-4-----------
G-0-0-0---3-0---3-0-----------3-0---3-0-
D-------1-----1-------------------1-----
A---------------------------------------
E---------------------------------------
[ Tab from: http://www.guitartabs.cc/tabs/m/misc_soundtrack/darth_vaders_theme_tab.html ]
e-3------3-1----0-0---------------------
B------3-------3-3--------2--1-1-1----1-
G----0------------------0-------3-3-0---
D---------------------------------------
A---------------------------------------
E---------------------------------------

e--------------3-----3-1--0-0--
B-----------3------3-----3-3---
G---0-3-0-3------0---------------
D-1------------------------------
A-----------------------------------
E-----------------------------------

e----------------------------------
B---2-1--1--1------1---------------
G-0--------3-----0------3-0----3-0-
D---------------------1------1-----
A----------------------------------
E----------------------------------

ENJOY!
Questions or comments email me @
s_starbuck100@hotmail.com
Comments