Misc Soundtrack - Cowboy Bebop - Dont Bother None Chords & Tabs

 

Cowboy Bebop - Dont Bother None Chords & Tabs

Misc Soundtrack Chords & Tabs

Version: 1 Type: Tab 0 ratings
1 star 2 stars 3 stars 4 stars 5 stars
comments

Cowboy Bebop - Dont Bother None Tab

Don't Bother None
 Cowboy Bebop
  tabbed by SJ (kirei_008@hotmail.com)
11/06/02

One of the more difficult songs I've had to tab;
heres the key; this is a blues song, so add a few
bends, not just for effect but also for "feeling."
For those who don't know what I'm talking about;
go play more blues. The song is played on an acoustic.
For the Intro, the guitarist often strums every 
string on the guitar (but mutes most of the notes) 
to get a sort of chipping sound 

Intro
------------------------------------ 
------------------------------------ 
------------------7-7----5---5---7-- 
------------------7-7--7-5-7-5-7-7-- 
--------0-3-0---0-5-5--7---7---7-7-- 
-0-h3-5-------5---5-5----------5-5-- 

---9s12-----------------9----9------------ 
---9s12-13-14--10-8-10----10---10--10p8--- 
-----------14---------------------------9- 
-7---------------------------------------- 
-7---------------------------------------- 
-5---------------------------------------- 

---------------------------0----0-----0-----0------- 
-----------------------7b8---7b8--7b8---7b8---7b8-5- 
-------7-7-5---5---7-------------------------------- 
-------7-7-5-7-5-7-7-------------------------------- 
-------5-5---7---7-7-------------------------------- 
-0h3-3-------------5-------------------------------- 
[ Tab from: http://www.guitartabs.cc/tabs/m/misc_soundtrack/cowboy_bebop_dont_bother_none_tab.html ]
----------------------------------------------- 
----------------------------------------------- 
---------7b-7b-7---5---5-------5-7-7-7-5---5--- 
---------7b-7b-7-7-5-7-5-7---7-5-7-7-7-5-7-5-7- 
---------5b-5b-5-7---7---7---7-----------7---7- 
-0h3-5-5-----------------5---5----------------- 

---------------------- 
---------------------- 
-----7-7---5---5------ 
-----7-7-7-5-7-5-7---- 
-----5-5-7---7---7---- 
-0h5-5-5---------5-5~- 

Verse
---------------------- 
---------------------- 
---------------------- 
---------------------- 
-7-x-7-x---7-x-7--5--- 
-5-x-5-x-0-5-x-5--3--- 

Chorus 
--------------------- 
--------------------- 
----5-----7---------- 
-3--5--2--7---4-5--7- 
-3--3--2--5---4-5--7- 
-1-----0------2-3--5- 

After First Chorus
-12-12-12-12-12-12-12-12-12-9----------- 
------------------------------10--10b--- 
--------------------------------------9- 
---------------------------------------- 
---------------------------------------- 
---------------------------------------- 

After Second Chorus
------------------------------- 
-10-10-10-10-10-8-------------- 
------------------9-7-7-7-5---- 
----------------------------7-- 
------------------------------- 
------------------------------- 

After Third Chorus     After Harmonica
----------------------- ------- 
[-8b---8b---]---------- ------- 
[----9b--9b-]---7------ -9-6--- 
--about 7---------7---- -----7- 
---times--------------- ------- 
----------------------- -------
Comments