Misc Soundtrack - Circus Theme Chords & Tabs

 

Circus Theme Chords & Tabs

Misc Soundtrack Chords & Tabs

Version: 1 Type: Bass Tab 0 ratings
1 star 2 stars 3 stars 4 stars 5 stars
comments

Circus Theme Bass Tab

Jeff (WytTrash13@yahoo.com)
Everyone should know the circus theme.
[ Tab from: http://www.guitartabs.cc/tabs/m/misc_soundtrack/circus_theme_btab.html ]
G[-8-7--6-7-6-5-----------------------------]
D[--------------9-8-7-8--9-8-7-8-7-6--------]
A[-----------------------------------9-8-7-8]
E[------------------------------------------]

G[--------------------------------------]
D[-8-------8--------------------7-6-5-4-]
A[---7-6-7---7-6-7------4-5-6-7---------]
E[------------------5-7-----------------] 

Comments