Misc Soundtrack - Buffy The Vampire Slayer Theme Chords & Tabs

 

Buffy The Vampire Slayer Theme Chords & Tabs

Misc Soundtrack Chords & Tabs

Version: 2 Type: Tab 0 ratings
1 star 2 stars 3 stars 4 stars 5 stars
comments

Buffy The Vampire Slayer Theme Tab

well, this the first tab I make... but it sounds pretty good to me.
So, here we go with the intro version:
[ Tab from: http://www.guitartabs.cc/tabs/m/misc_soundtrack/buffy_the_vampire_slayer_theme_tab_ver_2.html ]
---------------------------------------------------------------------------
---------------------------------------------------------------------------
---------------------------------------------------------------------------
-----------------------------11--13-14--7-----7--11-12--7----7-9-10-5-7-3--
-9--11-12--5--7--9-10--5------9--11-12--5-----9---9-10--5------------------
---------------------------------------------------------------------------
                              ^         ^     ^         ^

                             X6        X8    X6        X8

--------------------------------------------------------------
--------------------------------------------------------------
-11--13-14---9--13-14---7--9-10--5----6-----------------------
--9--11-12---7--11-12---5--7--8--3----4------2-2--------------
-------------------------------------------2-2-2--------------
-----------------------------------------------0--------------
 ^           ^          ^        ^    ^
x6          x6         x6       X8   X8    End (let ring the three of them)
Comments